  0
SECTION
  2
HEADER
  9
$ACADVER
  1
AC1014
  9
$ACADMAINTVER
 70
     0
  9
$DWGCODEPAGE
  3
ANSI_1252
  9
$INSBASE
 10
0.0
 20
0.0
 30
0.0
  9
$EXTMIN
 10
0.0
 20
0.0
 30
0.0
  9
$EXTMAX
 10
27.5
 20
21.25
 30
0.0
  9
$LIMMIN
 10
0.0
 20
0.0
  9
$LIMMAX
 10
12.0
 20
9.0
  9
$ORTHOMODE
 70
     0
  9
$REGENMODE
 70
     1
  9
$FILLMODE
 70
     0
  9
$QTEXTMODE
 70
     0
  9
$MIRRTEXT
 70
     1
  9
$DRAGMODE
 70
     2
  9
$LTSCALE
 40
1.0
  9
$OSMODE
 70
     0
  9
$ATTMODE
 70
     1
  9
$TEXTSIZE
 40
0.2
  9
$TRACEWID
 40
0.05
  9
$TEXTSTYLE
  7
STANDARD
  9
$CLAYER
  8
0
  9
$CELTYPE
  6
BYLAYER
  9
$CECOLOR
 62
   256
  9
$CELTSCALE
 40
1.0
  9
$DELOBJ
 70
     1
  9
$DISPSILH
 70
     0
  9
$DIMSCALE
 40
1.0
  9
$DIMASZ
 40
0.18
  9
$DIMEXO
 40
0.0625
  9
$DIMDLI
 40
0.38
  9
$DIMRND
 40
0.0
  9
$DIMDLE
 40
0.0
  9
$DIMEXE
 40
0.18
  9
$DIMTP
 40
0.0
  9
$DIMTM
 40
0.0
  9
$DIMTXT
 40
0.18
  9
$DIMCEN
 40
0.09
  9
$DIMTSZ
 40
0.0
  9
$DIMTOL
 70
     0
  9
$DIMLIM
 70
     0
  9
$DIMTIH
 70
     0
  9
$DIMTOH
 70
     0
  9
$DIMSE1
 70
     0
  9
$DIMSE2
 70
     0
  9
$DIMTAD
 70
     1
  9
$DIMZIN
 70
     0
  9
$DIMBLK
  1

  9
$DIMASO
 70
     1
  9
$DIMSHO
 70
     1
  9
$DIMPOST
  1

  9
$DIMAPOST
  1

  9
$DIMALT
 70
     0
  9
$DIMALTD
 70
     2
  9
$DIMALTF
 40
25.4
  9
$DIMLFAC
 40
1.0
  9
$DIMTOFL
 70
     0
  9
$DIMTVP
 40
0.0
  9
$DIMTIX
 70
     0
  9
$DIMSOXD
 70
     0
  9
$DIMSAH
 70
     0
  9
$DIMBLK1
  1

  9
$DIMBLK2
  1

  9
$DIMSTYLE
  2
STANDARD
  9
$DIMCLRD
 70
     0
  9
$DIMCLRE
 70
     0
  9
$DIMCLRT
 70
     0
  9
$DIMTFAC
 40
1.0
  9
$DIMGAP
 40
0.09
  9
$DIMJUST
 70
     0
  9
$DIMSD1
 70
     0
  9
$DIMSD2
 70
     0
  9
$DIMTOLJ
 70
     1
  9
$DIMTZIN
 70
     0
  9
$DIMALTZ
 70
     0
  9
$DIMALTTZ
 70
     0
  9
$DIMFIT
 70
     3
  9
$DIMUPT
 70
     0
  9
$DIMUNIT
 70
     2
  9
$DIMDEC
 70
     2
  9
$DIMTDEC
 70
     4
  9
$DIMALTU
 70
     2
  9
$DIMALTTD
 70
     2
  9
$DIMTXSTY
  7
STANDARD
  9
$DIMAUNIT
 70
     0
  9
$LUNITS
 70
     2
  9
$LUPREC
 70
     4
  9
$SKETCHINC
 40
0.1
  9
$FILLETRAD
 40
0.5
  9
$AUNITS
 70
     0
  9
$AUPREC
 70
     0
  9
$MENU
  1
.
  9
$ELEVATION
 40
0.0
  9
$PELEVATION
 40
0.0
  9
$THICKNESS
 40
0.0
  9
$LIMCHECK
 70
     0
  9
$BLIPMODE
 70
     0
  9
$CHAMFERA
 40
0.5
  9
$CHAMFERB
 40
0.5
  9
$CHAMFERC
 40
1.0
  9
$CHAMFERD
 40
0.0
  9
$SKPOLY
 70
     0
  9
$TDCREATE
 40
2450772.666465926
  9
$TDUPDATE
 40
2458167.618865741
  9
$TDINDWG
 40
0.0011680556
  9
$TDUSRTIMER
 40
0.0000115625
  9
$USRTIMER
 70
     1
  9
$ANGBASE
 50
0.0
  9
$ANGDIR
 70
     0
  9
$PDMODE
 70
     0
  9
$PDSIZE
 40
0.0
  9
$PLINEWID
 40
0.0
  9
$COORDS
 70
     1
  9
$SPLFRAME
 70
     0
  9
$SPLINETYPE
 70
     6
  9
$SPLINESEGS
 70
     8
  9
$ATTDIA
 70
     0
  9
$ATTREQ
 70
     1
  9
$HANDLING
 70
     1
  9
$HANDSEED
  5
14D
  9
$SURFTAB1
 70
     6
  9
$SURFTAB2
 70
     6
  9
$SURFTYPE
 70
     6
  9
$SURFU
 70
     6
  9
$SURFV
 70
     6
  9
$UCSNAME
  2

  9
$UCSORG
 10
0.0
 20
0.0
 30
0.0
  9
$UCSXDIR
 10
1.0
 20
0.0
 30
0.0
  9
$UCSYDIR
 10
0.0
 20
1.0
 30
0.0
  9
$PUCSNAME
  2

  9
$PUCSORG
 10
0.0
 20
0.0
 30
0.0
  9
$PUCSXDIR
 10
1.0
 20
0.0
 30
0.0
  9
$PUCSYDIR
 10
0.0
 20
1.0
 30
0.0
  9
$USERI1
 70
     0
  9
$USERI2
 70
     0
  9
$USERI3
 70
     0
  9
$USERI4
 70
     0
  9
$USERI5
 70
     0
  9
$USERR1
 40
0.0
  9
$USERR2
 40
0.0
  9
$USERR3
 40
0.0
  9
$USERR4
 40
0.0
  9
$USERR5
 40
0.0
  9
$WORLDVIEW
 70
     1
  9
$SHADEDGE
 70
     3
  9
$SHADEDIF
 70
    70
  9
$TILEMODE
 70
     1
  9
$MAXACTVP
 70
    48
  9
$PINSBASE
 10
0.0
 20
0.0
 30
0.0
  9
$PLIMCHECK
 70
     0
  9
$PEXTMIN
 10
0.0
 20
0.0
 30
0.0
  9
$PEXTMAX
 10
0.0
 20
0.0
 30
0.0
  9
$PLIMMIN
 10
0.0
 20
0.0
  9
$PLIMMAX
 10
12.0
 20
9.0
  9
$UNITMODE
 70
     0
  9
$VISRETAIN
 70
     1
  9
$PLINEGEN
 70
     0
  9
$PSLTSCALE
 70
     1
  9
$TREEDEPTH
 70
  3020
  9
$PICKSTYLE
 70
     1
  9
$CMLSTYLE
  2
STANDARD
  9
$CMLJUST
 70
     0
  9
$CMLSCALE
 40
1.0
  9
$PROXYGRAPHICS
 70
     1
  9
$MEASUREMENT
 70
     0
  0
ENDSEC
  0
SECTION
  2
CLASSES
  0
CLASS
  1
LWPOLYLINE
  2
AcDbPolyline
  3
"AutoCAD"
 90
        0
280
     0
281
     1
  0
CLASS
  1
IMAGE
  2
AcDbRasterImage
  3
ISM
 90
      127
280
     0
281
     1
  0
CLASS
  1
OLE2FRAME
  2
AcDbOle2Frame
  3
""
 90
        0
280
     0
281
     1
  0
CLASS
  1
HATCH
  2
AcDbHatch
  3
"ACAD_SEDONA"
 90
        0
280
     0
281
     1
  0
CLASS
  1
DICTIONARYVAR
  2
AcDbDictionaryVar
  3
"AutoCAD"
 90
        0
280
     0
281
     0
  0
CLASS
  1
RASTERVARIABLES
  2
AcDbRasterVariables
  3
ISM
 90
        0
280
     0
281
     0
  0
CLASS
  1
IMAGEDEF
  2
AcDbRasterImageDef
  3
ISM
 90
        0
280
     0
281
     0
  0
CLASS
  1
IMAGEDEF_REACTOR
  2
AcDbRasterImageDefReactor
  3
ISM
 90
        1
280
     0
281
     0
  0
CLASS
  1
IDBUFFER
  2
AcDbIdBuffer
  3
"Acad"
 90
        0
280
     0
281
     0
  0
CLASS
  1
SPATIAL_FILTER
  2
AcDbSpatialFilter
  3
"Acad"
 90
        0
280
     0
281
     0
  0
CLASS
  1
XRECORD
  2
AcDbXrecord
  3
"<Built In>"
 90
        0
280
     0
281
     0
  0
CLASS
  1
SORTENTSTABLE
  2
AcDbSortentsTable
  3
"AutoCAD"
 90
        0
280
     0
281
     0
  0
CLASS
  1
LAYER_INDEX
  2
AcDbLayerIndex
  3
"Acad"
 90
        0
280
     0
281
     0
  0
CLASS
  1
SPATIAL_INDEX
  2
AcDbSpatialIndex
  3
"Acad"
 90
        0
280
     0
281
     0
  0
CLASS
  1
OBJECT_PTR
  2
CAseDLPNTableRecord
  3
"ASE-LPNTableRecord"
 90
        1
280
     0
281
     0
  0
CLASS
  1
LAYOUT
  2
AcDbLayout
  3
"AutoCAD 2000"
 90
        1
280
     0
281
     0
  0
CLASS
  1
PLOTSETTINGS
  2
AcDbPlotSettings
  3
"AutoCAD 2000"
 90
        1
280
     0
281
     0
  0
CLASS
  1
ACDBDICTIONARYWDFLT
  2
AcDbDictionaryWithDefault
  3
"AutoCAD 2000"
 90
        1
280
     0
281
     0
  0
CLASS
  1
ACDBPLACEHOLDER
  2
AcDbPlaceHolder
  3
"AutoCAD 2000"
 90
        1
280
     0
281
     0
  0
CLASS
  1
VBA_PROJECT
  2
AcDbVbaProject
  3
"acadvba"
 90
        1
280
     0
281
     0
  0
CLASS
  1
WIPEOUT
  2
AcDbWipeout
  3
WipeOut|AutoCAD Express Tool|expresstools@autodesk.com
 90
      127
280
     0
281
     1
  0
CLASS
  1
WIPEOUTVARIABLES
  2
AcDbWipeoutVariables
  3
WipeOut|AutoCAD Express Tool|expresstools@autodesk.com
 90
        0
280
     0
281
     0
  0
CLASS
  1
RTEXT
  2
RText
  3
RText|AutoCAD Express Tool|expresstools@autodesk.com
 90
        0
280
     0
281
     1
  0
CLASS
  1
ARCALIGNEDTEXT
  2
AcDbArcAlignedText
  3
ATEXT|AutoCAD Express Tool|expresstools@autodesk.com
 90
        0
280
     0
281
     1
  0
ENDSEC
  0
SECTION
  2
TABLES
  0
TABLE
  2
VPORT
  5
8
100
AcDbSymbolTable
 70
     1
  0
VPORT
  5
25
100
AcDbSymbolTableRecord
100
AcDbViewportTableRecord
  2
*ACTIVE
 70
     0
 10
0.0
 20
0.0
 11
1.0
 21
1.0
 12
13.75
 22
10.625
 13
0.0
 23
0.0
 14
0.5
 24
0.5
 15
0.5
 25
0.5
 16
0.0
 26
0.0
 36
1.0
 17
0.0
 27
0.0
 37
0.0
 40
21.25
 41
1.294118
 42
50.0
 43
0.0
 44
0.0
 50
0.0
 51
0.0
 71
     0
 72
   100
 73
     1
 74
     1
 75
     0
 76
     0
 77
     0
 78
     0
  0
ENDTAB
  0
TABLE
  2
LTYPE
  5
5
100
AcDbSymbolTable
 70
     3
  0
LTYPE
  5
12
100
AcDbSymbolTableRecord
100
AcDbLinetypeTableRecord
  2
BYBLOCK
 70
    64
  3

 72
    65
 73
     0
 40
0.0
  0
LTYPE
  5
13
100
AcDbSymbolTableRecord
100
AcDbLinetypeTableRecord
  2
BYLAYER
 70
    64
  3

 72
    65
 73
     0
 40
0.0
  0
LTYPE
  5
14
100
AcDbSymbolTableRecord
100
AcDbLinetypeTableRecord
  2
CONTINUOUS
 70
     0
  3
Solid line
 72
    65
 73
     0
 40
0.0
  0
ENDTAB
  0
TABLE
  2
LAYER
  5
2
100
AcDbSymbolTable
 70
     2
  0
LAYER
  5
E
100
AcDbSymbolTableRecord
100
AcDbLayerTableRecord
  2
0
 70
     0
 62
     7
  6
CONTINUOUS
  0
LAYER
  5
4E
100
AcDbSymbolTableRecord
100
AcDbLayerTableRecord
  2
DIMENSIONS
 70
     0
 62
     7
  6
CONTINUOUS
  0
ENDTAB
  0
TABLE
  2
STYLE
  5
3
100
AcDbSymbolTable
 70
     1
  0
STYLE
  5
F
100
AcDbSymbolTableRecord
100
AcDbTextStyleTableRecord
  2
STANDARD
 70
     0
 40
0.0
 41
1.0
 50
0.0
 71
     0
 42
0.2
  3
txt.shx
  4

  0
ENDTAB
  0
TABLE
  2
VIEW
  5
6
100
AcDbSymbolTable
 70
     0
  0
ENDTAB
  0
TABLE
  2
UCS
  5
7
100
AcDbSymbolTable
 70
     0
  0
ENDTAB
  0
TABLE
  2
APPID
  5
9
100
AcDbSymbolTable
 70
     1
  0
APPID
  5
10
100
AcDbSymbolTableRecord
100
AcDbRegAppTableRecord
  2
ACAD
 70
     0
  0
ENDTAB
  0
TABLE
  2
DIMSTYLE
  5
A
100
AcDbSymbolTable
 70
     1
  0
DIMSTYLE
105
1D
100
AcDbSymbolTableRecord
100
AcDbDimStyleTableRecord
  2
STANDARD
 70
     0
  3

  4

  5

  6

  7

 40
1.0
 41
0.18
 42
0.0625
 43
0.38
 44
0.18
 45
0.0
 46
0.0
 47
0.0
 48
0.0
 71
     0
 72
     0
 73
     1
 74
     1
 75
     0
 76
     0
 77
     0
 78
     0
140
0.18
141
0.09
142
0.0
143
25.4
144
1.0
145
0.0
146
1.0
147
0.09
170
     0
171
     2
172
     0
173
     0
174
     0
175
     0
176
     0
177
     0
178
     0
270
     2
271
     4
272
     4
273
     2
274
     2
275
     0
280
     0
281
     0
282
     0
283
     1
284
     0
285
     0
286
     0
287
     3
288
     0
340
F
  0
ENDTAB
  0
TABLE
  2
BLOCK_RECORD
  5
1
100
AcDbSymbolTable
 70
     9
  0
BLOCK_RECORD
  5
18
100
AcDbSymbolTableRecord
100
AcDbBlockTableRecord
  2
*MODEL_SPACE
  0
BLOCK_RECORD
  5
15
100
AcDbSymbolTableRecord
100
AcDbBlockTableRecord
  2
*PAPER_SPACE
  0
BLOCK_RECORD
  5
F9
100
AcDbSymbolTableRecord
100
AcDbBlockTableRecord
  2
RECTANGLE
  0
BLOCK_RECORD
  5
FD
100
AcDbSymbolTableRecord
100
AcDbBlockTableRecord
  2
CIRCLE
  0
BLOCK_RECORD
  5
101
100
AcDbSymbolTableRecord
100
AcDbBlockTableRecord
  2
HORIZONTAL
  0
BLOCK_RECORD
  5
109
100
AcDbSymbolTableRecord
100
AcDbBlockTableRecord
  2
VERTICAL
  0
BLOCK_RECORD
  5
115
100
AcDbSymbolTableRecord
100
AcDbBlockTableRecord
  2
DIAMETER_OUTSIDE
  0
BLOCK_RECORD
  5
120
100
AcDbSymbolTableRecord
100
AcDbBlockTableRecord
  2
DIAMETER
  0
BLOCK_RECORD
  5
12C
100
AcDbSymbolTableRecord
100
AcDbBlockTableRecord
  2
VERTICAL_OUTSIDE
  0
BLOCK_RECORD
  5
139
100
AcDbSymbolTableRecord
100
AcDbBlockTableRecord
  2
VERTICAL_BASELINE
  0
BLOCK_RECORD
  5
145
100
AcDbSymbolTableRecord
100
AcDbBlockTableRecord
  2
HORIZONTAL_BASELINE
  0
ENDTAB
  0
ENDSEC
  0
SECTION
  2
BLOCKS
  0
BLOCK
  5
19
100
AcDbEntity
  8
0
100
AcDbBlockBegin
  2
*MODEL_SPACE
 70
     0
 10
0.0
 20
0.0
 30
0.0
  3
*MODEL_SPACE
  1

  0
ENDBLK
  5
1A
100
AcDbEntity
  8
0
100
AcDbBlockEnd
  0
BLOCK
  5
16
100
AcDbEntity
 67
     1
  8
0
100
AcDbBlockBegin
  2
*PAPER_SPACE
 70
     0
 10
0.0
 20
0.0
 30
0.0
  3
*PAPER_SPACE
  1

  0
ENDBLK
  5
17
100
AcDbEntity
 67
     1
  8
0
100
AcDbBlockEnd
  0
BLOCK
  5
FA
100
AcDbEntity
  8
0
100
AcDbBlockBegin
  2
RECTANGLE
 70
     0
 10
0.0
 20
0.0
 30
0.0
  3
RECTANGLE
  1

  0
LWPOLYLINE
  5
FB
100
AcDbEntity
  8
0
  6
CONTINUOUS
 62
     7
100
AcDbPolyline
 90
        4
 70
     1
 10
0.75
 20
1.0
 10
2.25
 20
1.0
 10
2.25
 20
2.0
 10
0.75
 20
2.0
  0
ENDBLK
  5
FC
100
AcDbEntity
  8
0
100
AcDbBlockEnd
  0
BLOCK
  5
FE
100
AcDbEntity
  8
0
100
AcDbBlockBegin
  2
CIRCLE
 70
     0
 10
0.0
 20
0.0
 30
0.0
  3
CIRCLE
  1

  0
LWPOLYLINE
  5
FF
100
AcDbEntity
  8
0
  6
CONTINUOUS
 62
     7
100
AcDbPolyline
 90
        2
 70
     1
 10
0.75
 20
1.5
 42
-1.0
 10
2.25
 20
1.5
 42
-1.0
  0
ENDBLK
  5
100
100
AcDbEntity
  8
0
100
AcDbBlockEnd
  0
BLOCK
  5
102
100
AcDbEntity
  8
0
100
AcDbBlockBegin
  2
HORIZONTAL
 70
     0
 10
0.0
 20
0.0
 30
0.0
  3
HORIZONTAL
  1

  0
LWPOLYLINE
  5
103
100
AcDbEntity
  8
DIMENSIONS
  6
CONTINUOUS
100
AcDbPolyline
 90
        2
 70
     1
 10
1.0
 20
1.702778
 10
1.0
 20
1.397222
  0
LWPOLYLINE
  5
104
100
AcDbEntity
  8
DIMENSIONS
  6
CONTINUOUS
100
AcDbPolyline
 90
        2
 70
     1
 10
2.0
 20
1.702778
 10
2.0
 20
1.397222
  0
LINE
  5
105
100
AcDbEntity
  8
DIMENSIONS
  6
CONTINUOUS
100
AcDbLine
 10
1.5
 20
1.591667
 30
0.0
 11
1.0
 21
1.591667
 31
0.0
  0
LINE
  5
106
100
AcDbEntity
  8
DIMENSIONS
  6
CONTINUOUS
100
AcDbLine
 10
1.5
 20
1.591667
 30
0.0
 11
2.0
 21
1.591667
 31
0.0
  0
MTEXT
  5
107
100
AcDbEntity
  8
DIMENSIONS
100
AcDbMText
 10
1.5
 20
1.591667
 30
0.0
 40
0.202229
 41
0.257584
 71
     5
 72
     5
  1
\C7;\fArial|b0|i0|;\H0.2022290462628;1.\P0\P0
  0
ENDBLK
  5
108
100
AcDbEntity
  8
0
100
AcDbBlockEnd
  0
BLOCK
  5
10A
100
AcDbEntity
  8
0
100
AcDbBlockBegin
  2
VERTICAL
 70
     2
 10
0.0
 20
0.0
 30
0.0
  3
VERTICAL
  1

  0
ATTDEF
  5
10B
100
AcDbEntity
  8
0
100
AcDbText
 10
1.679167
 20
1.0
 30
0.0
 40
0.2
  1
0.00
100
AcDbAttributeDefinition
  3
Precision
  2
LPREC
 70
     0
  0
ATTDEF
  5
10C
100
AcDbEntity
  8
0
100
AcDbText
 10
1.679167
 20
1.0
 30
0.0
 40
0.2
  1
 Use Drawing Page's Units
100
AcDbAttributeDefinition
  3
Units
  2
LUNITS
 70
     0
  0
ATTDEF
  5
10D
100
AcDbEntity
  8
0
100
AcDbText
 10
1.679167
 20
1.0
 30
0.0
 40
0.2
  1
Don't Show Units
100
AcDbAttributeDefinition
  3
Units Display
  2
SHOWUNITS
 70
     0
  0
ATTDEF
  5
10E
100
AcDbEntity
  8
0
100
AcDbText
 10
1.679167
 20
1.0
 30
0.0
 40
0.2
  1
Both
100
AcDbAttributeDefinition
  3
Extension Lines
  2
EXTENSIONS
 70
     0
  0
LWPOLYLINE
  5
10F
100
AcDbEntity
  8
DIMENSIONS
  6
CONTINUOUS
100
AcDbPolyline
 90
        2
 70
     1
 10
1.318056
 20
1.0
 10
1.623611
 20
1.0
  0
LWPOLYLINE
  5
110
100
AcDbEntity
  8
DIMENSIONS
  6
CONTINUOUS
100
AcDbPolyline
 90
        2
 70
     1
 10
1.318056
 20
2.0
 10
1.623611
 20
2.0
  0
LINE
  5
111
100
AcDbEntity
  8
DIMENSIONS
  6
CONTINUOUS
100
AcDbLine
 10
1.429167
 20
1.5
 30
0.0
 11
1.429167
 21
1.0
 31
0.0
  0
LINE
  5
112
100
AcDbEntity
  8
DIMENSIONS
  6
CONTINUOUS
100
AcDbLine
 10
1.429167
 20
1.5
 30
0.0
 11
1.429167
 21
2.0
 31
0.0
  0
MTEXT
  5
113
100
AcDbEntity
  8
DIMENSIONS
100
AcDbMText
 10
1.429167
 20
1.5
 30
0.0
 40
0.202229
 41
0.257584
 71
     5
 72
     5
  1
\C7;\fArial|b0|i0|;\H0.2022290462628;1.\P0\P0
  0
ENDBLK
  5
114
100
AcDbEntity
  8
0
100
AcDbBlockEnd
  0
BLOCK
  5
116
100
AcDbEntity
  8
0
100
AcDbBlockBegin
  2
DIAMETER_OUTSIDE
 70
     2
 10
0.0
 20
0.0
 30
0.0
  3
DIAMETER_OUTSIDE
  1

  0
ATTDEF
  5
117
100
AcDbEntity
  8
0
100
AcDbText
 10
0.8325
 20
1.091667
 30
0.0
 40
0.2
  1
0.00
100
AcDbAttributeDefinition
  3
Precision
  2
LPREC
 70
     0
  0
ATTDEF
  5
118
100
AcDbEntity
  8
0
100
AcDbText
 10
0.8325
 20
1.091667
 30
0.0
 40
0.2
  1
 Use Drawing Page's Units
100
AcDbAttributeDefinition
  3
Units
  2
LUNITS
 70
     0
  0
ATTDEF
  5
119
100
AcDbEntity
  8
0
100
AcDbText
 10
0.8325
 20
1.091667
 30
0.0
 40
0.2
  1
Don't Show Units
100
AcDbAttributeDefinition
  3
Units Display
  2
SHOWUNITS
 70
     0
  0
ATTDEF
  5
11A
100
AcDbEntity
  8
0
100
AcDbText
 10
0.8325
 20
1.091667
 30
0.0
 40
0.2
  1
Both
100
AcDbAttributeDefinition
  3
Extension Lines
  2
EXTENSIONS
 70
     0
  0
LWPOLYLINE
  5
11B
100
AcDbEntity
  8
DIMENSIONS
  6
CONTINUOUS
100
AcDbPolyline
 90
        2
 70
     1
 10
0.80125
 20
1.091667
 10
0.86375
 20
1.091667
  0
LWPOLYLINE
  5
11C
100
AcDbEntity
  8
DIMENSIONS
  6
CONTINUOUS
100
AcDbPolyline
 90
        2
 70
     1
 10
0.8325
 20
1.060417
 10
0.8325
 20
1.122917
  0
LWPOLYLINE
  5
11D
100
AcDbEntity
  8
DIMENSIONS
  6
CONTINUOUS
100
AcDbPolyline
 90
        3
 70
     0
 10
1.8325
 20
1.841667
 10
1.5825
 20
1.841667
 10
1.009277
 20
1.268443
  0
MTEXT
  5
11E
100
AcDbEntity
  8
DIMENSIONS
100
AcDbMText
 10
2.019939
 20
1.841667
 30
0.0
 40
0.202229
 41
0.374878
 71
     5
 72
     5
  1
\C7;\fArial|b0|i0|;\H0.2022290462628;\U+00D8 \P0.\P50
  0
ENDBLK
  5
11F
100
AcDbEntity
  8
0
100
AcDbBlockEnd
  0
BLOCK
  5
121
100
AcDbEntity
  8
0
100
AcDbBlockBegin
  2
DIAMETER
 70
     2
 10
0.0
 20
0.0
 30
0.0
  3
DIAMETER
  1

  0
ATTDEF
  5
122
100
AcDbEntity
  8
0
100
AcDbText
 10
0.8325
 20
1.091667
 30
0.0
 40
0.2
  1
0.00
100
AcDbAttributeDefinition
  3
Precision
  2
LPREC
 70
     0
  0
ATTDEF
  5
123
100
AcDbEntity
  8
0
100
AcDbText
 10
0.8325
 20
1.091667
 30
0.0
 40
0.2
  1
 Use Drawing Page's Units
100
AcDbAttributeDefinition
  3
Units
  2
LUNITS
 70
     0
  0
ATTDEF
  5
124
100
AcDbEntity
  8
0
100
AcDbText
 10
0.8325
 20
1.091667
 30
0.0
 40
0.2
  1
Don't Show Units
100
AcDbAttributeDefinition
  3
Units Display
  2
SHOWUNITS
 70
     0
  0
ATTDEF
  5
125
100
AcDbEntity
  8
0
100
AcDbText
 10
0.8325
 20
1.091667
 30
0.0
 40
0.2
  1
Both
100
AcDbAttributeDefinition
  3
Extension Lines
  2
EXTENSIONS
 70
     0
  0
LWPOLYLINE
  5
126
100
AcDbEntity
  8
DIMENSIONS
  6
CONTINUOUS
100
AcDbPolyline
 90
        2
 70
     1
 10
0.80125
 20
1.091667
 10
0.86375
 20
1.091667
  0
LWPOLYLINE
  5
127
100
AcDbEntity
  8
DIMENSIONS
  6
CONTINUOUS
100
AcDbPolyline
 90
        2
 70
     1
 10
0.8325
 20
1.060417
 10
0.8325
 20
1.122917
  0
LWPOLYLINE
  5
128
100
AcDbEntity
  8
DIMENSIONS
  6
CONTINUOUS
100
AcDbPolyline
 90
        4
 70
     0
 10
1.8325
 20
1.841667
 10
1.5825
 20
1.841667
 10
0.8325
 20
1.091667
 10
1.009277
 20
1.268443
  0
LINE
  5
129
100
AcDbEntity
  8
DIMENSIONS
  6
CONTINUOUS
100
AcDbLine
 10
0.8325
 20
1.091667
 30
0.0
 11
0.655723
 21
0.91489
 31
0.0
  0
MTEXT
  5
12A
100
AcDbEntity
  8
DIMENSIONS
100
AcDbMText
 10
2.019939
 20
1.841667
 30
0.0
 40
0.202229
 41
0.374878
 71
     5
 72
     5
  1
\C7;\fArial|b0|i0|;\H0.2022290462628;\U+00D8 \P0.\P50
  0
ENDBLK
  5
12B
100
AcDbEntity
  8
0
100
AcDbBlockEnd
  0
BLOCK
  5
12D
100
AcDbEntity
  8
0
100
AcDbBlockBegin
  2
VERTICAL_OUTSIDE
 70
     2
 10
0.0
 20
0.0
 30
0.0
  3
VERTICAL_OUTSIDE
  1

  0
ATTDEF
  5
12E
100
AcDbEntity
  8
0
100
AcDbText
 10
1.679167
 20
1.4208
 30
0.0
 40
0.2
  1
0.00
100
AcDbAttributeDefinition
  3
Precision
  2
LPREC
 70
     0
  0
ATTDEF
  5
12F
100
AcDbEntity
  8
0
100
AcDbText
 10
1.679167
 20
1.4208
 30
0.0
 40
0.2
  1
 Use Drawing Page's Units
100
AcDbAttributeDefinition
  3
Units
  2
LUNITS
 70
     0
  0
ATTDEF
  5
130
100
AcDbEntity
  8
0
100
AcDbText
 10
1.679167
 20
1.4208
 30
0.0
 40
0.2
  1
Don't Show Units
100
AcDbAttributeDefinition
  3
Units Display
  2
SHOWUNITS
 70
     0
  0
ATTDEF
  5
131
100
AcDbEntity
  8
0
100
AcDbText
 10
1.679167
 20
1.4208
 30
0.0
 40
0.2
  1
Both
100
AcDbAttributeDefinition
  3
Extension Lines
  2
EXTENSIONS
 70
     0
  0
LWPOLYLINE
  5
132
100
AcDbEntity
  8
DIMENSIONS
  6
CONTINUOUS
100
AcDbPolyline
 90
        2
 70
     1
 10
1.318056
 20
1.4208
 10
1.623611
 20
1.4208
  0
LWPOLYLINE
  5
133
100
AcDbEntity
  8
DIMENSIONS
  6
CONTINUOUS
100
AcDbPolyline
 90
        2
 70
     1
 10
1.318056
 20
1.9208
 10
1.623611
 20
1.9208
  0
LINE
  5
134
100
AcDbEntity
  8
DIMENSIONS
  6
CONTINUOUS
100
AcDbLine
 10
1.429167
 20
1.2542
 30
0.0
 11
1.429167
 21
1.4208
 31
0.0
  0
LINE
  5
135
100
AcDbEntity
  8
DIMENSIONS
  6
CONTINUOUS
100
AcDbLine
 10
1.429167
 20
2.0874
 30
0.0
 11
1.429167
 21
1.9208
 31
0.0
  0
LWPOLYLINE
  5
136
100
AcDbEntity
  8
DIMENSIONS
  6
CONTINUOUS
100
AcDbPolyline
 90
        2
 70
     1
 10
1.429167
 20
1.125408
 10
1.429167
 20
1.4208
  0
MTEXT
  5
137
100
AcDbEntity
  8
DIMENSIONS
100
AcDbMText
 10
1.429167
 20
1.125408
 30
0.0
 40
0.202229
 41
0.257584
 71
     5
 72
     5
  1
\C7;\fArial|b0|i0|;\H0.2022290462628;0.\P5\P0
  0
ENDBLK
  5
138
100
AcDbEntity
  8
0
100
AcDbBlockEnd
  0
BLOCK
  5
13A
100
AcDbEntity
  8
0
100
AcDbBlockBegin
  2
VERTICAL_BASELINE
 70
     2
 10
0.0
 20
0.0
 30
0.0
  3
VERTICAL_BASELINE
  1

  0
ATTDEF
  5
13B
100
AcDbEntity
  8
0
100
AcDbText
 10
1.5
 20
1.0
 30
0.0
 40
0.2
  1
0.00
100
AcDbAttributeDefinition
  3
Precision
  2
LPREC
 70
     0
  0
ATTDEF
  5
13C
100
AcDbEntity
  8
0
100
AcDbText
 10
1.5
 20
1.0
 30
0.0
 40
0.2
  1
 Use Drawing Page's Units
100
AcDbAttributeDefinition
  3
Units
  2
LUNITS
 70
     0
  0
ATTDEF
  5
13D
100
AcDbEntity
  8
0
100
AcDbText
 10
1.5
 20
1.0
 30
0.0
 40
0.2
  1
Don't Show Units
100
AcDbAttributeDefinition
  3
Units Display
  2
SHOWUNITS
 70
     0
  0
ATTDEF
  5
13E
100
AcDbEntity
  8
0
100
AcDbText
 10
1.5
 20
1.0
 30
0.0
 40
0.2
  1
Both
100
AcDbAttributeDefinition
  3
Extension Lines
  2
EXTENSIONS
 70
     0
  0
LWPOLYLINE
  5
13F
100
AcDbEntity
  8
DIMENSIONS
  6
CONTINUOUS
100
AcDbPolyline
 90
        2
 70
     1
 10
1.138889
 20
1.0
 10
1.444444
 20
1.0
  0
LWPOLYLINE
  5
140
100
AcDbEntity
  8
DIMENSIONS
  6
CONTINUOUS
100
AcDbPolyline
 90
        2
 70
     1
 10
1.138889
 20
2.0
 10
1.444444
 20
2.0
  0
LINE
  5
141
100
AcDbEntity
  8
DIMENSIONS
  6
CONTINUOUS
100
AcDbLine
 10
1.25
 20
1.5
 30
0.0
 11
1.25
 21
2.0
 31
0.0
  0
LINE
  5
142
100
AcDbEntity
  8
DIMENSIONS
  6
CONTINUOUS
100
AcDbLine
 10
1.25
 20
1.5
 30
0.0
 11
1.25
 21
1.0
 31
0.0
  0
MTEXT
  5
143
100
AcDbEntity
  8
DIMENSIONS
100
AcDbMText
 10
1.25
 20
1.5
 30
0.0
 40
0.202229
 41
0.257584
 71
     5
 72
     5
  1
\C7;\fArial|b0|i0|;\H0.2022290462628;1.\P0\P0
  0
ENDBLK
  5
144
100
AcDbEntity
  8
0
100
AcDbBlockEnd
  0
BLOCK
  5
146
100
AcDbEntity
  8
0
100
AcDbBlockBegin
  2
HORIZONTAL_BASELINE
 70
     0
 10
0.0
 20
0.0
 30
0.0
  3
HORIZONTAL_BASELINE
  1

  0
LWPOLYLINE
  5
147
100
AcDbEntity
  8
DIMENSIONS
  6
CONTINUOUS
100
AcDbPolyline
 90
        2
 70
     1
 10
1.0
 20
1.861111
 10
1.0
 20
1.555556
  0
LWPOLYLINE
  5
148
100
AcDbEntity
  8
DIMENSIONS
  6
CONTINUOUS
100
AcDbPolyline
 90
        2
 70
     1
 10
2.0
 20
1.861111
 10
2.0
 20
1.555556
  0
LINE
  5
149
100
AcDbEntity
  8
DIMENSIONS
  6
CONTINUOUS
100
AcDbLine
 10
1.5
 20
1.75
 30
0.0
 11
1.0
 21
1.75
 31
0.0
  0
LINE
  5
14A
100
AcDbEntity
  8
DIMENSIONS
  6
CONTINUOUS
100
AcDbLine
 10
1.5
 20
1.75
 30
0.0
 11
2.0
 21
1.75
 31
0.0
  0
MTEXT
  5
14B
100
AcDbEntity
  8
DIMENSIONS
100
AcDbMText
 10
1.5
 20
1.75
 30
0.0
 40
0.202229
 41
0.257584
 71
     5
 72
     5
  1
\C7;\fArial|b0|i0|;\H0.2022290462628;1.\P0\P0
  0
ENDBLK
  5
14C
100
AcDbEntity
  8
0
100
AcDbBlockEnd
  0
ENDSEC
  0
SECTION
  2
ENTITIES
  0
LWPOLYLINE
  5
31
100
AcDbEntity
  8
0
  6
CONTINUOUS
 62
     7
100
AcDbPolyline
 90
        4
 70
     1
 10
13.2
 20
16.2
 10
24.525
 20
16.2
 10
24.525
 20
20.4
 10
13.2
 20
20.4
  0
LWPOLYLINE
  5
32
100
AcDbEntity
  8
0
  6
CONTINUOUS
 62
     7
100
AcDbPolyline
 90
        4
 70
     1
 10
1.4
 20
16.933333
 10
12.6
 20
16.933333
 10
12.6
 20
20.4
 10
1.4
 20
20.4
  0
LWPOLYLINE
  5
33
100
AcDbEntity
  8
0
  6
CONTINUOUS
 62
     7
100
AcDbPolyline
 90
        4
 70
     1
 10
7.66
 20
15.0
 10
25.66
 20
15.0
 10
25.66
 20
15.06
 10
7.66
 20
15.06
  0
LINE
  5
34
100
AcDbEntity
  8
0
  6
CONTINUOUS
 62
     7
100
AcDbLine
 10
7.66
 20
15.0
 30
0.0
 11
7.66
 21
14.0
 31
0.0
  0
LINE
  5
35
100
AcDbEntity
  8
0
  6
CONTINUOUS
 62
     7
100
AcDbLine
 10
16.66
 20
15.0
 30
0.0
 11
16.66
 21
14.375
 31
0.0
  0
LINE
  5
36
100
AcDbEntity
  8
0
  6
CONTINUOUS
 62
     7
100
AcDbLine
 10
8.66
 20
13.0
 30
0.0
 11
14.66
 21
13.0
 31
0.0
  0
LINE
  5
37
100
AcDbEntity
  8
0
  6
CONTINUOUS
 62
     7
100
AcDbLine
 10
7.66
 20
14.0
 30
0.0
 11
8.66
 21
13.0
 31
0.0
  0
LINE
  5
38
100
AcDbEntity
  8
0
  6
CONTINUOUS
 62
     7
100
AcDbLine
 10
16.66
 20
14.375
 30
0.0
 11
14.66
 21
13.0
 31
0.0
  0
LWPOLYLINE
  5
39
100
AcDbEntity
  8
0
  6
CONTINUOUS
 62
     7
100
AcDbPolyline
 90
        2
 70
     1
 10
11.51
 20
14.15
 42
-1.0
 10
12.01
 20
14.15
 42
-1.0
  0
LWPOLYLINE
  5
3A
100
AcDbEntity
  8
0
  6
CONTINUOUS
 62
     7
100
AcDbPolyline
 90
        2
 70
     1
 10
7.9725
 20
14.625
 42
-1.0
 10
8.2225
 20
14.625
 42
-1.0
  0
LWPOLYLINE
  5
3B
100
AcDbEntity
  8
0
  6
CONTINUOUS
 62
     7
100
AcDbPolyline
 90
        2
 70
     1
 10
15.91
 20
14.375
 42
-1.0
 10
16.16
 20
14.375
 42
-1.0
  0
LWPOLYLINE
  5
3C
100
AcDbEntity
  8
0
  6
CONTINUOUS
 62
     7
100
AcDbPolyline
 90
        2
 70
     1
 10
9.5975
 20
13.625
 42
-1.0
 10
9.9725
 20
13.625
 42
-1.0
  0
LWPOLYLINE
  5
3D
100
AcDbEntity
  8
0
  6
CONTINUOUS
 62
     7
100
AcDbPolyline
 90
        2
 70
     1
 10
13.535
 20
13.625
 42
-1.0
 10
13.91
 20
13.625
 42
-1.0
  0
LWPOLYLINE
  5
3E
100
AcDbEntity
  8
0
  6
CONTINUOUS
 62
     7
100
AcDbPolyline
 90
        4
 70
     1
 10
1.75
 20
15.0
 10
5.75
 20
15.0
 10
5.75
 20
15.0625
 10
1.75
 20
15.0625
  0
LWPOLYLINE
  5
3F
100
AcDbEntity
  8
0
  6
CONTINUOUS
 62
     7
100
AcDbPolyline
 90
        4
 70
     1
 10
3.0275
 20
13.0
 10
3.09
 20
13.0
 10
3.09
 20
15.0
 10
3.0275
 20
15.0
  0
LWPOLYLINE
  5
40
100
AcDbEntity
  8
0
  6
CONTINUOUS
 62
     7
100
AcDbPolyline
 90
        4
 70
     1
 10
4.39875
 20
13.0
 10
4.46125
 20
13.0
 10
4.46125
 20
15.0
 10
4.39875
 20
15.0
  0
LWPOLYLINE
  5
41
100
AcDbEntity
  8
0
  6
CONTINUOUS
 62
     7
100
AcDbPolyline
 90
        4
 70
     1
 10
3.71375
 20
13.0
 10
3.77625
 20
13.0
 10
3.77625
 20
15.0
 10
3.71375
 20
15.0
  0
LINE
  5
42
100
AcDbEntity
  8
0
  6
CONTINUOUS
 62
     7
100
AcDbLine
 10
7.66
 20
6.5
 30
0.0
 11
10.512
 21
7.75
 31
0.0
  0
LINE
  5
43
100
AcDbEntity
  8
0
  6
CONTINUOUS
 62
     7
100
AcDbLine
 10
7.66
 20
5.0
 30
0.0
 11
10.51
 21
3.75
 31
0.0
  0
LINE
  5
44
100
AcDbEntity
  8
0
  6
CONTINUOUS
 62
     7
100
AcDbLine
 10
13.01
 20
7.75
 30
0.0
 11
16.66
 21
6.5
 31
0.0
  0
LINE
  5
45
100
AcDbEntity
  8
0
  6
CONTINUOUS
 62
     7
100
AcDbLine
 10
13.01
 20
3.75
 30
0.0
 11
16.66
 21
5.0
 31
0.0
  0
LINE
  5
46
100
AcDbEntity
  8
0
  6
CONTINUOUS
 62
     7
100
AcDbLine
 10
7.66
 20
6.5
 30
0.0
 11
7.66
 21
5.0
 31
0.0
  0
LINE
  5
47
100
AcDbEntity
  8
0
  6
CONTINUOUS
 62
     7
100
AcDbLine
 10
10.512
 20
7.75
 30
0.0
 11
13.01
 21
7.75
 31
0.0
  0
LINE
  5
48
100
AcDbEntity
  8
0
  6
CONTINUOUS
 62
     7
100
AcDbLine
 10
10.51
 20
3.75
 30
0.0
 11
13.01
 21
3.75
 31
0.0
  0
LWPOLYLINE
  5
49
100
AcDbEntity
  8
0
  6
CONTINUOUS
 62
     7
100
AcDbPolyline
 90
        2
 70
     1
 10
24.8
 20
5.75
 42
-1.0
 10
25.05
 20
5.75
 42
-1.0
  0
LINE
  5
4A
100
AcDbEntity
  8
0
  6
CONTINUOUS
 62
     7
100
AcDbLine
 10
16.66
 20
6.5
 30
0.0
 11
25.65
 21
6.5
 31
0.0
  0
LINE
  5
4B
100
AcDbEntity
  8
0
  6
CONTINUOUS
 62
     7
100
AcDbLine
 10
16.66
 20
5.0
 30
0.0
 11
25.65
 21
5.0
 31
0.0
  0
LINE
  5
4C
100
AcDbEntity
  8
0
  6
CONTINUOUS
 62
     7
100
AcDbLine
 10
25.65
 20
6.5
 30
0.0
 11
25.65
 21
5.0
 31
0.0
  0
LWPOLYLINE
  5
4F
102
{ACAD_REACTORS
330
4D
102
}
100
AcDbEntity
  8
DIMENSIONS
  6
CONTINUOUS
100
AcDbPolyline
 90
        2
 70
     1
 10
7.66
 20
15.962778
 10
7.66
 20
15.198889
  0
LWPOLYLINE
  5
50
102
{ACAD_REACTORS
330
4D
102
}
100
AcDbEntity
  8
DIMENSIONS
  6
CONTINUOUS
100
AcDbPolyline
 90
        2
 70
     1
 10
25.66
 20
15.962778
 10
25.66
 20
15.198889
  0
LINE
  5
51
102
{ACAD_REACTORS
330
4D
102
}
100
AcDbEntity
  8
DIMENSIONS
  6
CONTINUOUS
100
AcDbLine
 10
16.66
 20
15.685
 30
0.0
 11
7.66
 21
15.685
 31
0.0
  0
LINE
  5
52
102
{ACAD_REACTORS
330
4D
102
}
100
AcDbEntity
  8
DIMENSIONS
  6
CONTINUOUS
100
AcDbLine
 10
16.66
 20
15.685
 30
0.0
 11
25.66
 21
15.685
 31
0.0
  0
MTEXT
  5
53
100
AcDbEntity
  8
DIMENSIONS
100
AcDbMText
 10
16.66
 20
15.685
 30
0.0
 40
0.202229
 41
0.798446
 71
     5
 72
     5
  1
\C7;\fArial|b0|i0|;\H0.2022290462628;18.00
  0
LWPOLYLINE
  5
55
102
{ACAD_REACTORS
330
54
102
}
100
AcDbEntity
  8
DIMENSIONS
  6
CONTINUOUS
100
AcDbPolyline
 90
        2
 70
     1
 10
6.757222
 20
5.0
 10
7.521111
 20
5.0
  0
LWPOLYLINE
  5
56
102
{ACAD_REACTORS
330
54
102
}
100
AcDbEntity
  8
DIMENSIONS
  6
CONTINUOUS
100
AcDbPolyline
 90
        2
 70
     1
 10
6.757222
 20
6.5
 10
7.521111
 20
6.5
  0
LINE
  5
57
102
{ACAD_REACTORS
330
54
102
}
100
AcDbEntity
  8
DIMENSIONS
  6
CONTINUOUS
100
AcDbLine
 10
7.035
 20
5.75
 30
0.0
 11
7.035
 21
5.0
 31
0.0
  0
LINE
  5
58
102
{ACAD_REACTORS
330
54
102
}
100
AcDbEntity
  8
DIMENSIONS
  6
CONTINUOUS
100
AcDbLine
 10
7.035
 20
5.75
 30
0.0
 11
7.035
 21
6.5
 31
0.0
  0
MTEXT
  5
59
100
AcDbEntity
  8
DIMENSIONS
100
AcDbMText
 10
7.035
 20
5.75
 30
0.0
 40
0.202229
 41
0.64396
 71
     5
 72
     5
  1
\C7;\fArial|b0|i0|;\H0.2022290462628;1.50
  0
LWPOLYLINE
  5
5B
102
{ACAD_REACTORS
330
5A
102
}
100
AcDbEntity
  8
DIMENSIONS
  6
CONTINUOUS
100
AcDbPolyline
 90
        2
 70
     1
 10
10.732222
 20
3.75
 10
11.511111
 20
3.75
  0
LWPOLYLINE
  5
5C
102
{ACAD_REACTORS
330
5A
102
}
100
AcDbEntity
  8
DIMENSIONS
  6
CONTINUOUS
100
AcDbPolyline
 90
        2
 70
     1
 10
10.732222
 20
7.75
 10
11.511111
 20
7.75
  0
LINE
  5
5D
102
{ACAD_REACTORS
330
5A
102
}
100
AcDbEntity
  8
DIMENSIONS
  6
CONTINUOUS
100
AcDbLine
 10
11.01
 20
5.75
 30
0.0
 11
11.01
 21
3.75
 31
0.0
  0
LINE
  5
5E
102
{ACAD_REACTORS
330
5A
102
}
100
AcDbEntity
  8
DIMENSIONS
  6
CONTINUOUS
100
AcDbLine
 10
11.01
 20
5.75
 30
0.0
 11
11.01
 21
7.75
 31
0.0
  0
MTEXT
  5
5F
100
AcDbEntity
  8
DIMENSIONS
100
AcDbMText
 10
11.01
 20
5.75
 30
0.0
 40
0.202229
 41
0.64396
 71
     5
 72
     5
  1
\C7;\fArial|b0|i0|;\H0.2022290462628;4.00
  0
LWPOLYLINE
  5
61
100
AcDbEntity
  8
DIMENSIONS
  6
CONTINUOUS
100
AcDbPolyline
 90
        4
 70
     0
 10
10.615
 20
13.24
 10
10.114338
 20
13.24
 42
-0.277165
 10
9.931562
 20
13.34975
 10
9.873124
 20
13.459499
  0
MTEXT
  5
62
100
AcDbEntity
  8
DIMENSIONS
100
AcDbMText
 10
11.05566
 20
13.24
 30
0.0
 40
0.202229
 41
0.88132
 71
     5
 72
     5
  1
\C7;\fArial|b0|i0|;\H0.2022290462628;\U+00D8 3/8"
  0
LWPOLYLINE
  5
64
100
AcDbEntity
  8
DIMENSIONS
  6
CONTINUOUS
100
AcDbPolyline
 90
        4
 70
     0
 10
13.085
 20
14.15
 10
13.541176
 20
14.15
 42
-0.407258
 10
13.714018
 20
13.981223
 10
13.718037
 20
13.812447
  0
MTEXT
  5
65
100
AcDbEntity
  8
DIMENSIONS
100
AcDbMText
 10
12.64434
 20
14.15
 30
0.0
 40
0.202229
 41
0.88132
 71
     5
 72
     5
  1
\C7;\fArial|b0|i0|;\H0.2022290462628;\U+00D8 3/8"
  0
LWPOLYLINE
  5
67
100
AcDbEntity
  8
DIMENSIONS
  6
CONTINUOUS
100
AcDbPolyline
 90
        4
 70
     0
 10
12.51
 20
13.475
 10
12.103238
 20
13.475
 42
-0.361544
 10
11.845261
 20
13.68959
 10
11.805522
 20
13.904179
  0
MTEXT
  5
68
100
AcDbEntity
  8
DIMENSIONS
100
AcDbMText
 10
12.95066
 20
13.475
 30
0.0
 40
0.202229
 41
0.88132
 71
     5
 72
     5
  1
\C7;\fArial|b0|i0|;\H0.2022290462628;\U+00D8 1/2"
  0
LWPOLYLINE
  5
6A
102
{ACAD_REACTORS
330
69
102
}
100
AcDbEntity
  8
DIMENSIONS
  6
CONTINUOUS
100
AcDbPolyline
 90
        2
 70
     1
 10
3.77625
 20
14.477778
 10
3.77625
 20
14.138889
  0
LWPOLYLINE
  5
6B
102
{ACAD_REACTORS
330
69
102
}
100
AcDbEntity
  8
DIMENSIONS
  6
CONTINUOUS
100
AcDbPolyline
 90
        2
 70
     1
 10
4.39875
 20
14.477778
 10
4.39875
 20
14.138889
  0
LINE
  5
6C
102
{ACAD_REACTORS
330
69
102
}
100
AcDbEntity
  8
DIMENSIONS
  6
CONTINUOUS
100
AcDbLine
 10
4.0875
 20
14.2
 30
0.0
 11
3.77625
 21
14.2
 31
0.0
  0
LINE
  5
6D
102
{ACAD_REACTORS
330
69
102
}
100
AcDbEntity
  8
DIMENSIONS
  6
CONTINUOUS
100
AcDbLine
 10
4.0875
 20
14.2
 30
0.0
 11
4.39875
 21
14.2
 31
0.0
  0
LWPOLYLINE
  5
6E
102
{ACAD_REACTORS
330
69
102
}
100
AcDbEntity
  8
DIMENSIONS
  6
CONTINUOUS
100
AcDbPolyline
 90
        2
 70
     1
 10
4.0875
 20
13.6
 10
4.0875
 20
14.2
  0
MTEXT
  5
6F
100
AcDbEntity
  8
DIMENSIONS
100
AcDbMText
 10
4.0875
 20
13.6
 30
0.0
 40
0.202229
 41
0.588084
 71
     5
 72
     5
  1
\C7;\fArial|b0|i0|;\H0.2022290462628;5/8"
  0
LWPOLYLINE
  5
71
102
{ACAD_REACTORS
330
70
102
}
100
AcDbEntity
  8
DIMENSIONS
  6
CONTINUOUS
100
AcDbPolyline
 90
        2
 70
     1
 10
3.09
 20
14.477778
 10
3.09
 20
14.138889
  0
LWPOLYLINE
  5
72
102
{ACAD_REACTORS
330
70
102
}
100
AcDbEntity
  8
DIMENSIONS
  6
CONTINUOUS
100
AcDbPolyline
 90
        2
 70
     1
 10
3.71375
 20
14.477778
 10
3.71375
 20
14.138889
  0
LINE
  5
73
102
{ACAD_REACTORS
330
70
102
}
100
AcDbEntity
  8
DIMENSIONS
  6
CONTINUOUS
100
AcDbLine
 10
3.401875
 20
14.2
 30
0.0
 11
3.09
 21
14.2
 31
0.0
  0
LINE
  5
74
102
{ACAD_REACTORS
330
70
102
}
100
AcDbEntity
  8
DIMENSIONS
  6
CONTINUOUS
100
AcDbLine
 10
3.401875
 20
14.2
 30
0.0
 11
3.71375
 21
14.2
 31
0.0
  0
LWPOLYLINE
  5
75
102
{ACAD_REACTORS
330
70
102
}
100
AcDbEntity
  8
DIMENSIONS
  6
CONTINUOUS
100
AcDbPolyline
 90
        2
 70
     1
 10
3.401875
 20
13.6
 10
3.401875
 20
14.2
  0
MTEXT
  5
76
100
AcDbEntity
  8
DIMENSIONS
100
AcDbMText
 10
3.401875
 20
13.6
 30
0.0
 40
0.202229
 41
0.588084
 71
     5
 72
     5
  1
\C7;\fArial|b0|i0|;\H0.2022290462628;5/8"
  0
MTEXT
  5
77
100
AcDbEntity
  8
DIMENSIONS
100
AcDbMText
 10
13.509524
 20
18.136111
 30
0.0
 40
0.303347
 41
11.092063
 71
     4
 72
     5
  3
\C7;\fArial|b0|i0|;\H0.3033470408991;Notes:\P- top plate is 11ga stainless steel, verticals are 16ga \P- corners should be rounded slightly\P- vertical members are welded to the top surface.\P- a loop of 1/4" round stainless stock should be welded to
  1
 \Pthe front, duplicating the original unit\P- all measurements in inches\P- extended tail at the aft is for mounting Windex windvane\P
  0
LWPOLYLINE
  5
79
100
AcDbEntity
  8
DIMENSIONS
  6
CONTINUOUS
100
AcDbPolyline
 90
        4
 70
     0
 10
15.205
 20
14.03
 10
15.691845
 20
14.03
 42
0.26459
 10
15.900573
 20
14.14877
 10
15.971147
 20
14.26754
  0
MTEXT
  5
7A
100
AcDbEntity
  8
DIMENSIONS
100
AcDbMText
 10
14.76434
 20
14.03
 30
0.0
 40
0.202229
 41
0.88132
 71
     5
 72
     5
  1
\C7;\fArial|b0|i0|;\H0.2022290462628;\U+00D8 1/4"
  0
LWPOLYLINE
  5
7C
100
AcDbEntity
  8
DIMENSIONS
  6
CONTINUOUS
100
AcDbPolyline
 90
        3
 70
     0
 10
9.085
 20
14.62
 10
8.46
 20
14.62
 10
8.222488
 20
14.623276
  0
MTEXT
  5
7D
100
AcDbEntity
  8
DIMENSIONS
100
AcDbMText
 10
9.52566
 20
14.62
 30
0.0
 40
0.202229
 41
0.88132
 71
     5
 72
     5
  1
\C7;\fArial|b0|i0|;\H0.2022290462628;\U+00D8 1/4"
  0
LWPOLYLINE
  5
7F
100
AcDbEntity
  8
DIMENSIONS
  6
CONTINUOUS
100
AcDbPolyline
 90
        3
 70
     0
 10
24.1025
 20
5.6175
 10
24.7275
 20
5.6175
 10
24.821196
 20
5.68036
  0
MTEXT
  5
80
100
AcDbEntity
  8
DIMENSIONS
100
AcDbMText
 10
23.66184
 20
5.6175
 30
0.0
 40
0.202229
 41
0.88132
 71
     5
 72
     5
  1
\C7;\fArial|b0|i0|;\H0.2022290462628;\U+00D8 1/4"
  0
LWPOLYLINE
  5
82
102
{ACAD_REACTORS
330
81
102
}
100
AcDbEntity
  8
DIMENSIONS
  6
CONTINUOUS
100
AcDbPolyline
 90
        2
 70
     1
 10
1.75
 20
15.680278
 10
1.75
 20
15.201389
  0
LWPOLYLINE
  5
83
102
{ACAD_REACTORS
330
81
102
}
100
AcDbEntity
  8
DIMENSIONS
  6
CONTINUOUS
100
AcDbPolyline
 90
        2
 70
     1
 10
5.75
 20
15.680278
 10
5.75
 20
15.201389
  0
LINE
  5
84
102
{ACAD_REACTORS
330
81
102
}
100
AcDbEntity
  8
DIMENSIONS
  6
CONTINUOUS
100
AcDbLine
 10
3.75
 20
15.4025
 30
0.0
 11
1.75
 21
15.4025
 31
0.0
  0
LINE
  5
85
102
{ACAD_REACTORS
330
81
102
}
100
AcDbEntity
  8
DIMENSIONS
  6
CONTINUOUS
100
AcDbLine
 10
3.75
 20
15.4025
 30
0.0
 11
5.75
 21
15.4025
 31
0.0
  0
MTEXT
  5
86
100
AcDbEntity
  8
DIMENSIONS
100
AcDbMText
 10
3.75
 20
15.4025
 30
0.0
 40
0.202229
 41
0.64396
 71
     5
 72
     5
  1
\C7;\fArial|b0|i0|;\H0.2022290462628;4.00
  0
LWPOLYLINE
  5
88
102
{ACAD_REACTORS
330
87
102
}
100
AcDbEntity
  8
DIMENSIONS
  6
CONTINUOUS
100
AcDbPolyline
 90
        2
 70
     1
 10
6.702222
 20
13.0
 10
7.521111
 20
13.0
  0
LWPOLYLINE
  5
89
102
{ACAD_REACTORS
330
87
102
}
100
AcDbEntity
  8
DIMENSIONS
  6
CONTINUOUS
100
AcDbPolyline
 90
        2
 70
     1
 10
6.702222
 20
14.15
 10
11.621111
 20
14.15
  0
LINE
  5
8A
102
{ACAD_REACTORS
330
87
102
}
100
AcDbEntity
  8
DIMENSIONS
  6
CONTINUOUS
100
AcDbLine
 10
6.98
 20
13.575
 30
0.0
 11
6.98
 21
14.15
 31
0.0
  0
LINE
  5
8B
102
{ACAD_REACTORS
330
87
102
}
100
AcDbEntity
  8
DIMENSIONS
  6
CONTINUOUS
100
AcDbLine
 10
6.98
 20
13.575
 30
0.0
 11
6.98
 21
13.0
 31
0.0
  0
MTEXT
  5
8C
100
AcDbEntity
  8
DIMENSIONS
100
AcDbMText
 10
6.98
 20
13.575
 30
0.0
 40
0.202229
 41
0.819741
 71
     5
 72
     5
  1
\C7;\fArial|b0|i0|;\H0.2022290462628;1 1/8"
  0
LWPOLYLINE
  5
8D
102
{ACAD_REACTORS
330
87
102
}
100
AcDbEntity
  8
DIMENSIONS
  6
CONTINUOUS
100
AcDbPolyline
 90
        2
 70
     1
 10
6.182222
 20
13.0
 10
7.521111
 20
13.0
  0
LWPOLYLINE
  5
8E
102
{ACAD_REACTORS
330
87
102
}
100
AcDbEntity
  8
DIMENSIONS
  6
CONTINUOUS
100
AcDbPolyline
 90
        2
 70
     1
 10
6.182222
 20
14.625
 10
7.958611
 20
14.625
  0
LINE
  5
8F
102
{ACAD_REACTORS
330
87
102
}
100
AcDbEntity
  8
DIMENSIONS
  6
CONTINUOUS
100
AcDbLine
 10
6.46
 20
13.8125
 30
0.0
 11
6.46
 21
14.625
 31
0.0
  0
LINE
  5
90
102
{ACAD_REACTORS
330
87
102
}
100
AcDbEntity
  8
DIMENSIONS
  6
CONTINUOUS
100
AcDbLine
 10
6.46
 20
13.8125
 30
0.0
 11
6.46
 21
13.0
 31
0.0
  0
MTEXT
  5
91
100
AcDbEntity
  8
DIMENSIONS
100
AcDbMText
 10
6.46
 20
13.8125
 30
0.0
 40
0.202229
 41
0.819741
 71
     5
 72
     5
  1
\C7;\fArial|b0|i0|;\H0.2022290462628;1 5/8"
  0
LWPOLYLINE
  5
92
102
{ACAD_REACTORS
330
87
102
}
100
AcDbEntity
  8
DIMENSIONS
  6
CONTINUOUS
100
AcDbPolyline
 90
        2
 70
     1
 10
5.662222
 20
13.0
 10
7.521111
 20
13.0
  0
LWPOLYLINE
  5
93
102
{ACAD_REACTORS
330
87
102
}
100
AcDbEntity
  8
DIMENSIONS
  6
CONTINUOUS
100
AcDbPolyline
 90
        2
 70
     1
 10
5.662222
 20
15.0
 10
7.141111
 20
15.0
  0
LINE
  5
94
102
{ACAD_REACTORS
330
87
102
}
100
AcDbEntity
  8
DIMENSIONS
  6
CONTINUOUS
100
AcDbLine
 10
5.94
 20
14.0
 30
0.0
 11
5.94
 21
15.0
 31
0.0
  0
LINE
  5
95
102
{ACAD_REACTORS
330
87
102
}
100
AcDbEntity
  8
DIMENSIONS
  6
CONTINUOUS
100
AcDbLine
 10
5.94
 20
14.0
 30
0.0
 11
5.94
 21
13.0
 31
0.0
  0
MTEXT
  5
96
100
AcDbEntity
  8
DIMENSIONS
100
AcDbMText
 10
5.94
 20
14.0
 30
0.0
 40
0.202229
 41
0.356427
 71
     5
 72
     5
  1
\C7;\fArial|b0|i0|;\H0.2022290462628;2"
  0
LWPOLYLINE
  5
97
102
{ACAD_REACTORS
330
87
102
}
100
AcDbEntity
  8
DIMENSIONS
  6
CONTINUOUS
100
AcDbPolyline
 90
        2
 70
     1
 10
7.222222
 20
13.0
 10
7.521111
 20
13.0
  0
LWPOLYLINE
  5
98
102
{ACAD_REACTORS
330
87
102
}
100
AcDbEntity
  8
DIMENSIONS
  6
CONTINUOUS
100
AcDbPolyline
 90
        2
 70
     1
 10
7.222222
 20
13.625
 10
9.646111
 20
13.625
  0
LINE
  5
99
102
{ACAD_REACTORS
330
87
102
}
100
AcDbEntity
  8
DIMENSIONS
  6
CONTINUOUS
100
AcDbLine
 10
7.5
 20
14.0415
 30
0.0
 11
7.5
 21
13.625
 31
0.0
  0
LINE
  5
9A
102
{ACAD_REACTORS
330
87
102
}
100
AcDbEntity
  8
DIMENSIONS
  6
CONTINUOUS
100
AcDbLine
 10
7.5
 20
12.5835
 30
0.0
 11
7.5
 21
13.0
 31
0.0
  0
MTEXT
  5
9B
100
AcDbEntity
  8
DIMENSIONS
100
AcDbMText
 10
7.5
 20
12.289458
 30
0.0
 40
0.202229
 41
0.588084
 71
     5
 72
     5
  1
\C7;\fArial|b0|i0|;\H0.2022290462628;5/8"
  0
LWPOLYLINE
  5
9D
102
{ACAD_REACTORS
330
9C
102
}
100
AcDbEntity
  8
DIMENSIONS
  6
CONTINUOUS
100
AcDbPolyline
 90
        2
 70
     1
 10
18.262778
 20
13.0
 10
16.878889
 20
13.0
  0
LWPOLYLINE
  5
9E
102
{ACAD_REACTORS
330
9C
102
}
100
AcDbEntity
  8
DIMENSIONS
  6
CONTINUOUS
100
AcDbPolyline
 90
        2
 70
     1
 10
18.262778
 20
14.375
 10
16.173889
 20
14.375
  0
LINE
  5
9F
102
{ACAD_REACTORS
330
9C
102
}
100
AcDbEntity
  8
DIMENSIONS
  6
CONTINUOUS
100
AcDbLine
 10
17.985
 20
13.6875
 30
0.0
 11
17.985
 21
14.375
 31
0.0
  0
LINE
  5
A0
102
{ACAD_REACTORS
330
9C
102
}
100
AcDbEntity
  8
DIMENSIONS
  6
CONTINUOUS
100
AcDbLine
 10
17.985
 20
13.6875
 30
0.0
 11
17.985
 21
13.0
 31
0.0
  0
MTEXT
  5
A1
100
AcDbEntity
  8
DIMENSIONS
100
AcDbMText
 10
17.985
 20
13.6875
 30
0.0
 40
0.202229
 41
0.819741
 71
     5
 72
     5
  1
\C7;\fArial|b0|i0|;\H0.2022290462628;1 3/8"
  0
LWPOLYLINE
  5
A2
102
{ACAD_REACTORS
330
9C
102
}
100
AcDbEntity
  8
DIMENSIONS
  6
CONTINUOUS
100
AcDbPolyline
 90
        2
 70
     1
 10
18.887778
 20
13.0
 10
16.878889
 20
13.0
  0
LWPOLYLINE
  5
A3
102
{ACAD_REACTORS
330
9C
102
}
100
AcDbEntity
  8
DIMENSIONS
  6
CONTINUOUS
100
AcDbPolyline
 90
        2
 70
     1
 10
18.887778
 20
15.0
 10
16.905556
 20
15.0
  0
LINE
  5
A4
102
{ACAD_REACTORS
330
9C
102
}
100
AcDbEntity
  8
DIMENSIONS
  6
CONTINUOUS
100
AcDbLine
 10
18.61
 20
14.0
 30
0.0
 11
18.61
 21
15.0
 31
0.0
  0
LINE
  5
A5
102
{ACAD_REACTORS
330
9C
102
}
100
AcDbEntity
  8
DIMENSIONS
  6
CONTINUOUS
100
AcDbLine
 10
18.61
 20
14.0
 30
0.0
 11
18.61
 21
13.0
 31
0.0
  0
MTEXT
  5
A6
100
AcDbEntity
  8
DIMENSIONS
100
AcDbMText
 10
18.61
 20
14.0
 30
0.0
 40
0.202229
 41
0.356427
 71
     5
 72
     5
  1
\C7;\fArial|b0|i0|;\H0.2022290462628;2"
  0
LWPOLYLINE
  5
A7
102
{ACAD_REACTORS
330
9C
102
}
100
AcDbEntity
  8
DIMENSIONS
  6
CONTINUOUS
100
AcDbPolyline
 90
        2
 70
     1
 10
17.637778
 20
13.0
 10
16.878889
 20
13.0
  0
LWPOLYLINE
  5
A8
102
{ACAD_REACTORS
330
9C
102
}
100
AcDbEntity
  8
DIMENSIONS
  6
CONTINUOUS
100
AcDbPolyline
 90
        2
 70
     1
 10
17.637778
 20
13.625
 10
13.861389
 20
13.625
  0
LINE
  5
A9
102
{ACAD_REACTORS
330
9C
102
}
100
AcDbEntity
  8
DIMENSIONS
  6
CONTINUOUS
100
AcDbLine
 10
17.36
 20
14.0415
 30
0.0
 11
17.36
 21
13.625
 31
0.0
  0
LINE
  5
AA
102
{ACAD_REACTORS
330
9C
102
}
100
AcDbEntity
  8
DIMENSIONS
  6
CONTINUOUS
100
AcDbLine
 10
17.36
 20
12.5835
 30
0.0
 11
17.36
 21
13.0
 31
0.0
  0
MTEXT
  5
AB
100
AcDbEntity
  8
DIMENSIONS
100
AcDbMText
 10
17.36
 20
12.289458
 30
0.0
 40
0.202229
 41
0.588084
 71
     5
 72
     5
  1
\C7;\fArial|b0|i0|;\H0.2022290462628;5/8"
  0
LWPOLYLINE
  5
AD
102
{ACAD_REACTORS
330
AC
102
}
100
AcDbEntity
  8
DIMENSIONS
  6
CONTINUOUS
100
AcDbPolyline
 90
        2
 70
     1
 10
7.66
 20
11.232222
 10
7.66
 20
11.871111
  0
LWPOLYLINE
  5
AE
102
{ACAD_REACTORS
330
AC
102
}
100
AcDbEntity
  8
DIMENSIONS
  6
CONTINUOUS
100
AcDbPolyline
 90
        2
 70
     1
 10
8.66
 20
11.232222
 10
8.66
 20
12.861111
  0
LINE
  5
AF
102
{ACAD_REACTORS
330
AC
102
}
100
AcDbEntity
  8
DIMENSIONS
  6
CONTINUOUS
100
AcDbLine
 10
8.16
 20
11.51
 30
0.0
 11
7.66
 21
11.51
 31
0.0
  0
LINE
  5
B0
102
{ACAD_REACTORS
330
AC
102
}
100
AcDbEntity
  8
DIMENSIONS
  6
CONTINUOUS
100
AcDbLine
 10
8.16
 20
11.51
 30
0.0
 11
8.66
 21
11.51
 31
0.0
  0
MTEXT
  5
B1
100
AcDbEntity
  8
DIMENSIONS
100
AcDbMText
 10
8.16
 20
11.51
 30
0.0
 40
0.202229
 41
0.356427
 71
     5
 72
     5
  1
\C7;\fArial|b0|i0|;\H0.2022290462628;1"
  0
LWPOLYLINE
  5
B2
102
{ACAD_REACTORS
330
AC
102
}
100
AcDbEntity
  8
DIMENSIONS
  6
CONTINUOUS
100
AcDbPolyline
 90
        2
 70
     1
 10
7.66
 20
10.852222
 10
7.66
 20
11.871111
  0
LWPOLYLINE
  5
B3
102
{ACAD_REACTORS
330
AC
102
}
100
AcDbEntity
  8
DIMENSIONS
  6
CONTINUOUS
100
AcDbPolyline
 90
        2
 70
     1
 10
9.785
 20
10.852222
 10
9.785
 20
13.486111
  0
LINE
  5
B4
102
{ACAD_REACTORS
330
AC
102
}
100
AcDbEntity
  8
DIMENSIONS
  6
CONTINUOUS
100
AcDbLine
 10
8.7225
 20
11.13
 30
0.0
 11
7.66
 21
11.13
 31
0.0
  0
LINE
  5
B5
102
{ACAD_REACTORS
330
AC
102
}
100
AcDbEntity
  8
DIMENSIONS
  6
CONTINUOUS
100
AcDbLine
 10
8.7225
 20
11.13
 30
0.0
 11
9.785
 21
11.13
 31
0.0
  0
MTEXT
  5
B6
100
AcDbEntity
  8
DIMENSIONS
100
AcDbMText
 10
8.7225
 20
11.13
 30
0.0
 40
0.202229
 41
0.819741
 71
     5
 72
     5
  1
\C7;\fArial|b0|i0|;\H0.2022290462628;2 1/8"
  0
LWPOLYLINE
  5
B7
102
{ACAD_REACTORS
330
AC
102
}
100
AcDbEntity
  8
DIMENSIONS
  6
CONTINUOUS
100
AcDbPolyline
 90
        2
 70
     1
 10
7.66
 20
10.472222
 10
7.66
 20
11.871111
  0
LWPOLYLINE
  5
B8
102
{ACAD_REACTORS
330
AC
102
}
100
AcDbEntity
  8
DIMENSIONS
  6
CONTINUOUS
100
AcDbPolyline
 90
        2
 70
     1
 10
11.76
 20
10.472222
 10
11.76
 20
14.011111
  0
LINE
  5
B9
102
{ACAD_REACTORS
330
AC
102
}
100
AcDbEntity
  8
DIMENSIONS
  6
CONTINUOUS
100
AcDbLine
 10
9.71
 20
10.75
 30
0.0
 11
7.66
 21
10.75
 31
0.0
  0
LINE
  5
BA
102
{ACAD_REACTORS
330
AC
102
}
100
AcDbEntity
  8
DIMENSIONS
  6
CONTINUOUS
100
AcDbLine
 10
9.71
 20
10.75
 30
0.0
 11
11.76
 21
10.75
 31
0.0
  0
MTEXT
  5
BB
100
AcDbEntity
  8
DIMENSIONS
100
AcDbMText
 10
9.71
 20
10.75
 30
0.0
 40
0.202229
 41
0.819741
 71
     5
 72
     5
  1
\C7;\fArial|b0|i0|;\H0.2022290462628;4 1/8"
  0
LWPOLYLINE
  5
BC
102
{ACAD_REACTORS
330
AC
102
}
100
AcDbEntity
  8
DIMENSIONS
  6
CONTINUOUS
100
AcDbPolyline
 90
        2
 70
     1
 10
7.66
 20
11.612222
 10
7.66
 20
11.871111
  0
LWPOLYLINE
  5
BD
102
{ACAD_REACTORS
330
AC
102
}
100
AcDbEntity
  8
DIMENSIONS
  6
CONTINUOUS
100
AcDbPolyline
 90
        2
 70
     1
 10
8.0975
 20
11.612222
 10
8.0975
 20
14.486111
  0
LINE
  5
BE
102
{ACAD_REACTORS
330
AC
102
}
100
AcDbEntity
  8
DIMENSIONS
  6
CONTINUOUS
100
AcDbLine
 10
7.2435
 20
11.89
 30
0.0
 11
7.66
 21
11.89
 31
0.0
  0
LINE
  5
BF
102
{ACAD_REACTORS
330
AC
102
}
100
AcDbEntity
  8
DIMENSIONS
  6
CONTINUOUS
100
AcDbLine
 10
8.514
 20
11.89
 30
0.0
 11
8.0975
 21
11.89
 31
0.0
  0
MTEXT
  5
C0
100
AcDbEntity
  8
DIMENSIONS
100
AcDbMText
 10
6.872215
 20
11.89
 30
0.0
 40
0.202229
 41
0.74257
 71
     5
 72
     5
  1
\C7;\fArial|b0|i0|;\H0.2022290462628;7/16"
  0
LWPOLYLINE
  5
C2
102
{ACAD_REACTORS
330
C1
102
}
100
AcDbEntity
  8
DIMENSIONS
  6
CONTINUOUS
100
AcDbPolyline
 90
        2
 70
     1
 10
7.66
 20
9.852222
 10
7.66
 20
10.101111
  0
LWPOLYLINE
  5
C3
102
{ACAD_REACTORS
330
C1
102
}
100
AcDbEntity
  8
DIMENSIONS
  6
CONTINUOUS
100
AcDbPolyline
 90
        2
 70
     1
 10
14.66
 20
9.852222
 10
14.66
 20
12.861111
  0
LINE
  5
C4
102
{ACAD_REACTORS
330
C1
102
}
100
AcDbEntity
  8
DIMENSIONS
  6
CONTINUOUS
100
AcDbLine
 10
11.16
 20
10.13
 30
0.0
 11
7.66
 21
10.13
 31
0.0
  0
LINE
  5
C5
102
{ACAD_REACTORS
330
C1
102
}
100
AcDbEntity
  8
DIMENSIONS
  6
CONTINUOUS
100
AcDbLine
 10
11.16
 20
10.13
 30
0.0
 11
14.66
 21
10.13
 31
0.0
  0
MTEXT
  5
C6
100
AcDbEntity
  8
DIMENSIONS
100
AcDbMText
 10
11.16
 20
10.13
 30
0.0
 40
0.202229
 41
0.356427
 71
     5
 72
     5
  1
\C7;\fArial|b0|i0|;\H0.2022290462628;7"
  0
LWPOLYLINE
  5
C7
102
{ACAD_REACTORS
330
C1
102
}
100
AcDbEntity
  8
DIMENSIONS
  6
CONTINUOUS
100
AcDbPolyline
 90
        2
 70
     1
 10
7.66
 20
9.542222
 10
7.66
 20
10.101111
  0
LWPOLYLINE
  5
C8
102
{ACAD_REACTORS
330
C1
102
}
100
AcDbEntity
  8
DIMENSIONS
  6
CONTINUOUS
100
AcDbPolyline
 90
        2
 70
     1
 10
16.035
 20
9.542222
 10
16.035
 20
14.236111
  0
LINE
  5
C9
102
{ACAD_REACTORS
330
C1
102
}
100
AcDbEntity
  8
DIMENSIONS
  6
CONTINUOUS
100
AcDbLine
 10
11.8475
 20
9.82
 30
0.0
 11
7.66
 21
9.82
 31
0.0
  0
LINE
  5
CA
102
{ACAD_REACTORS
330
C1
102
}
100
AcDbEntity
  8
DIMENSIONS
  6
CONTINUOUS
100
AcDbLine
 10
11.8475
 20
9.82
 30
0.0
 11
16.035
 21
9.82
 31
0.0
  0
MTEXT
  5
CB
100
AcDbEntity
  8
DIMENSIONS
100
AcDbMText
 10
11.8475
 20
9.82
 30
0.0
 40
0.202229
 41
0.819741
 71
     5
 72
     5
  1
\C7;\fArial|b0|i0|;\H0.2022290462628;8 3/8"
  0
LWPOLYLINE
  5
CC
102
{ACAD_REACTORS
330
C1
102
}
100
AcDbEntity
  8
DIMENSIONS
  6
CONTINUOUS
100
AcDbPolyline
 90
        2
 70
     1
 10
7.66
 20
9.232222
 10
7.66
 20
10.101111
  0
LWPOLYLINE
  5
CD
102
{ACAD_REACTORS
330
C1
102
}
100
AcDbEntity
  8
DIMENSIONS
  6
CONTINUOUS
100
AcDbPolyline
 90
        2
 70
     1
 10
16.66
 20
9.232222
 10
16.66
 20
14.236111
  0
LINE
  5
CE
102
{ACAD_REACTORS
330
C1
102
}
100
AcDbEntity
  8
DIMENSIONS
  6
CONTINUOUS
100
AcDbLine
 10
12.16
 20
9.51
 30
0.0
 11
7.66
 21
9.51
 31
0.0
  0
LINE
  5
CF
102
{ACAD_REACTORS
330
C1
102
}
100
AcDbEntity
  8
DIMENSIONS
  6
CONTINUOUS
100
AcDbLine
 10
12.16
 20
9.51
 30
0.0
 11
16.66
 21
9.51
 31
0.0
  0
MTEXT
  5
D0
100
AcDbEntity
  8
DIMENSIONS
100
AcDbMText
 10
12.16
 20
9.51
 30
0.0
 40
0.202229
 41
0.356427
 71
     5
 72
     5
  1
\C7;\fArial|b0|i0|;\H0.2022290462628;9"
  0
LWPOLYLINE
  5
D1
102
{ACAD_REACTORS
330
C1
102
}
100
AcDbEntity
  8
DIMENSIONS
  6
CONTINUOUS
100
AcDbPolyline
 90
        2
 70
     1
 10
7.66
 20
10.717778
 10
7.66
 20
10.378889
  0
LWPOLYLINE
  5
D2
102
{ACAD_REACTORS
330
C1
102
}
100
AcDbEntity
  8
DIMENSIONS
  6
CONTINUOUS
100
AcDbPolyline
 90
        2
 70
     1
 10
13.7225
 20
10.162222
 10
13.7225
 20
13.486111
  0
LINE
  5
D3
102
{ACAD_REACTORS
330
C1
102
}
100
AcDbEntity
  8
DIMENSIONS
  6
CONTINUOUS
100
AcDbLine
 10
10.69125
 20
10.44
 30
0.0
 11
7.66
 21
10.44
 31
0.0
  0
LINE
  5
D4
102
{ACAD_REACTORS
330
C1
102
}
100
AcDbEntity
  8
DIMENSIONS
  6
CONTINUOUS
100
AcDbLine
 10
10.69125
 20
10.44
 30
0.0
 11
13.7225
 21
10.44
 31
0.0
  0
MTEXT
  5
D5
100
AcDbEntity
  8
DIMENSIONS
100
AcDbMText
 10
10.69125
 20
10.44
 30
0.0
 40
0.202229
 41
0.974227
 71
     5
 72
     5
  1
\C7;\fArial|b0|i0|;\H0.2022290462628;6 1/16"
  0
LWPOLYLINE
  5
D7
102
{ACAD_REACTORS
330
D6
102
}
100
AcDbEntity
  8
DIMENSIONS
  6
CONTINUOUS
100
AcDbPolyline
 90
        2
 70
     1
 10
7.66
 20
2.912222
 10
7.66
 20
3.561111
  0
LWPOLYLINE
  5
D8
102
{ACAD_REACTORS
330
D6
102
}
100
AcDbEntity
  8
DIMENSIONS
  6
CONTINUOUS
100
AcDbPolyline
 90
        2
 70
     1
 10
13.01
 20
2.912222
 10
13.01
 20
3.611111
  0
LINE
  5
D9
102
{ACAD_REACTORS
330
D6
102
}
100
AcDbEntity
  8
DIMENSIONS
  6
CONTINUOUS
100
AcDbLine
 10
10.335
 20
3.19
 30
0.0
 11
7.66
 21
3.19
 31
0.0
  0
LINE
  5
DA
102
{ACAD_REACTORS
330
D6
102
}
100
AcDbEntity
  8
DIMENSIONS
  6
CONTINUOUS
100
AcDbLine
 10
10.335
 20
3.19
 30
0.0
 11
13.01
 21
3.19
 31
0.0
  0
MTEXT
  5
DB
100
AcDbEntity
  8
DIMENSIONS
100
AcDbMText
 10
10.335
 20
3.19
 30
0.0
 40
0.202229
 41
0.819741
 71
     5
 72
     5
  1
\C7;\fArial|b0|i0|;\H0.2022290462628;5 3/8"
  0
LWPOLYLINE
  5
DC
102
{ACAD_REACTORS
330
D6
102
}
100
AcDbEntity
  8
DIMENSIONS
  6
CONTINUOUS
100
AcDbPolyline
 90
        2
 70
     1
 10
7.66
 20
2.542222
 10
7.66
 20
3.561111
  0
LWPOLYLINE
  5
DD
102
{ACAD_REACTORS
330
D6
102
}
100
AcDbEntity
  8
DIMENSIONS
  6
CONTINUOUS
100
AcDbPolyline
 90
        2
 70
     1
 10
16.66
 20
2.542222
 10
16.66
 20
4.861111
  0
LINE
  5
DE
102
{ACAD_REACTORS
330
D6
102
}
100
AcDbEntity
  8
DIMENSIONS
  6
CONTINUOUS
100
AcDbLine
 10
12.16
 20
2.82
 30
0.0
 11
7.66
 21
2.82
 31
0.0
  0
LINE
  5
DF
102
{ACAD_REACTORS
330
D6
102
}
100
AcDbEntity
  8
DIMENSIONS
  6
CONTINUOUS
100
AcDbLine
 10
12.16
 20
2.82
 30
0.0
 11
16.66
 21
2.82
 31
0.0
  0
MTEXT
  5
E0
100
AcDbEntity
  8
DIMENSIONS
100
AcDbMText
 10
12.16
 20
2.82
 30
0.0
 40
0.202229
 41
0.356427
 71
     5
 72
     5
  1
\C7;\fArial|b0|i0|;\H0.2022290462628;9"
  0
LWPOLYLINE
  5
E1
102
{ACAD_REACTORS
330
D6
102
}
100
AcDbEntity
  8
DIMENSIONS
  6
CONTINUOUS
100
AcDbPolyline
 90
        2
 70
     1
 10
7.66
 20
2.172222
 10
7.66
 20
3.561111
  0
LWPOLYLINE
  5
E2
102
{ACAD_REACTORS
330
D6
102
}
100
AcDbEntity
  8
DIMENSIONS
  6
CONTINUOUS
100
AcDbPolyline
 90
        2
 70
     1
 10
25.65
 20
2.172222
 10
25.65
 20
4.861111
  0
LINE
  5
E3
102
{ACAD_REACTORS
330
D6
102
}
100
AcDbEntity
  8
DIMENSIONS
  6
CONTINUOUS
100
AcDbLine
 10
16.655
 20
2.45
 30
0.0
 11
7.66
 21
2.45
 31
0.0
  0
LINE
  5
E4
102
{ACAD_REACTORS
330
D6
102
}
100
AcDbEntity
  8
DIMENSIONS
  6
CONTINUOUS
100
AcDbLine
 10
16.655
 20
2.45
 30
0.0
 11
25.65
 21
2.45
 31
0.0
  0
MTEXT
  5
E5
100
AcDbEntity
  8
DIMENSIONS
100
AcDbMText
 10
16.655
 20
2.45
 30
0.0
 40
0.202229
 41
0.656453
 71
     5
 72
     5
  1
\C7;\fArial|b0|i0|;\H0.2022290462628;1'-6"
  0
LWPOLYLINE
  5
E6
102
{ACAD_REACTORS
330
D6
102
}
100
AcDbEntity
  8
DIMENSIONS
  6
CONTINUOUS
100
AcDbPolyline
 90
        2
 70
     1
 10
7.66
 20
3.282222
 10
7.66
 20
3.561111
  0
LWPOLYLINE
  5
E7
102
{ACAD_REACTORS
330
D6
102
}
100
AcDbEntity
  8
DIMENSIONS
  6
CONTINUOUS
100
AcDbPolyline
 90
        2
 70
     1
 10
10.5125
 20
3.282222
 10
10.5125
 20
3.561111
  0
LINE
  5
E8
102
{ACAD_REACTORS
330
D6
102
}
100
AcDbEntity
  8
DIMENSIONS
  6
CONTINUOUS
100
AcDbLine
 10
9.08625
 20
3.56
 30
0.0
 11
7.66
 21
3.56
 31
0.0
  0
LINE
  5
E9
102
{ACAD_REACTORS
330
D6
102
}
100
AcDbEntity
  8
DIMENSIONS
  6
CONTINUOUS
100
AcDbLine
 10
9.08625
 20
3.56
 30
0.0
 11
10.5125
 21
3.56
 31
0.0
  0
MTEXT
  5
EA
100
AcDbEntity
  8
DIMENSIONS
100
AcDbMText
 10
9.08625
 20
3.56
 30
0.0
 40
0.202229
 41
0.819741
 71
     5
 72
     5
  1
\C7;\fArial|b0|i0|;\H0.2022290462628;2 7/8"
  0
LWPOLYLINE
  5
EC
102
{ACAD_REACTORS
330
EB
102
}
100
AcDbEntity
  8
DIMENSIONS
  6
CONTINUOUS
100
AcDbPolyline
 90
        2
 70
     1
 10
24.925
 20
6.427778
 10
24.925
 20
5.888889
  0
LINE
  5
ED
102
{ACAD_REACTORS
330
EB
102
}
100
AcDbEntity
  8
DIMENSIONS
  6
CONTINUOUS
100
AcDbLine
 10
25.2875
 20
6.15
 30
0.0
 11
24.925
 21
6.15
 31
0.0
  0
LINE
  5
EE
102
{ACAD_REACTORS
330
EB
102
}
100
AcDbEntity
  8
DIMENSIONS
  6
CONTINUOUS
100
AcDbLine
 10
25.2875
 20
6.15
 30
0.0
 11
25.65
 21
6.15
 31
0.0
  0
LWPOLYLINE
  5
EF
102
{ACAD_REACTORS
330
EB
102
}
100
AcDbEntity
  8
DIMENSIONS
  6
CONTINUOUS
100
AcDbPolyline
 90
        2
 70
     1
 10
25.2875
 20
6.875
 10
25.2875
 20
6.15
  0
MTEXT
  5
F0
100
AcDbEntity
  8
DIMENSIONS
100
AcDbMText
 10
25.2875
 20
6.875
 30
0.0
 40
0.202229
 41
0.588084
 71
     5
 72
     5
  1
\C7;\fArial|b0|i0|;\H0.2022290462628;3/4"
  0
LWPOLYLINE
  5
F2
102
{ACAD_REACTORS
330
F1
102
}
100
AcDbEntity
  8
DIMENSIONS
  6
CONTINUOUS
100
AcDbPolyline
 90
        2
 70
     1
 10
25.577778
 20
5.0
 10
25.088889
 20
5.0
  0
LWPOLYLINE
  5
F3
102
{ACAD_REACTORS
330
F1
102
}
100
AcDbEntity
  8
DIMENSIONS
  6
CONTINUOUS
100
AcDbPolyline
 90
        2
 70
     1
 10
25.577778
 20
5.75
 10
25.063889
 20
5.75
  0
LINE
  5
F4
102
{ACAD_REACTORS
330
F1
102
}
100
AcDbEntity
  8
DIMENSIONS
  6
CONTINUOUS
100
AcDbLine
 10
25.3
 20
5.375
 30
0.0
 11
25.3
 21
5.0
 31
0.0
  0
LINE
  5
F5
102
{ACAD_REACTORS
330
F1
102
}
100
AcDbEntity
  8
DIMENSIONS
  6
CONTINUOUS
100
AcDbLine
 10
25.3
 20
5.375
 30
0.0
 11
25.3
 21
5.75
 31
0.0
  0
LWPOLYLINE
  5
F6
102
{ACAD_REACTORS
330
F1
102
}
100
AcDbEntity
  8
DIMENSIONS
  6
CONTINUOUS
100
AcDbPolyline
 90
        4
 70
     1
 10
26.0
 20
5.4125
 10
26.0
 20
5.375
 10
25.3
 20
5.375
 10
26.0
 20
5.375
  0
MTEXT
  5
F7
100
AcDbEntity
  8
DIMENSIONS
100
AcDbMText
 10
26.0
 20
5.4125
 30
0.0
 40
0.202229
 41
0.588084
 71
     5
 72
     5
  1
\C7;\fArial|b0|i0|;\H0.2022290462628;3/4"
  0
MTEXT
  5
F8
100
AcDbEntity
  8
DIMENSIONS
100
AcDbMText
 10
1.606349
 20
18.7
 30
0.0
 40
0.353899
 41
12.098413
 71
     4
 72
     5
  1
\C7;\fArial|b1|i0|;\H0.35389909520745;Tanzer 22 Masthead for all-rope halyards\P\H0.3033470408991;Copyright Melissa Goudeseune, March 2000\P\fArial|b0|i0|;note\P: not for commercial use; if you make money from this \Pdiagram, I want a share :-) 
  0
ENDSEC
  0
SECTION
  2
OBJECTS
  0
DICTIONARY
  5
C
100
AcDbDictionary
  3
ACAD_GROUP
350
D
  3
ACAD_MLINESTYLE
350
1B
  0
DICTIONARY
  5
D
102
{ACAD_REACTORS
330
C
102
}
100
AcDbDictionary
  3
VISIOGROUP_0
350
4D
  3
VISIOGROUP_1
350
54
  3
VISIOGROUP_2
350
5A
  3
VISIOGROUP_3
350
60
  3
VISIOGROUP_4
350
63
  3
VISIOGROUP_5
350
66
  3
VISIOGROUP_6
350
69
  3
VISIOGROUP_7
350
70
  3
VISIOGROUP_8
350
78
  3
VISIOGROUP_9
350
7B
  3
VISIOGROUP_10
350
7E
  3
VISIOGROUP_11
350
81
  3
VISIOGROUP_12
350
87
  3
VISIOGROUP_13
350
9C
  3
VISIOGROUP_14
350
AC
  3
VISIOGROUP_15
350
C1
  3
VISIOGROUP_16
350
D6
  3
VISIOGROUP_17
350
EB
  3
VISIOGROUP_18
350
F1
  0
DICTIONARY
  5
1B
102
{ACAD_REACTORS
330
C
102
}
100
AcDbDictionary
  3
STANDARD
350
1C
  0
MLINESTYLE
  5
1C
102
{ACAD_REACTORS
330
1B
102
}
100
AcDbMlineStyle
  2
STANDARD
 70
     0
  3

 62
   256
 51
90.0
 52
90.0
 71
     2
 49
0.5
 62
   256
  6
BYLAYER
 49
-0.5
 62
   256
  6
BYLAYER
  0
GROUP
  5
4D
102
{ACAD_REACTORS
330
D
102
}
100
AcDbGroup
300
Group created by Visio.
 70
     0
 71
     1
340
4F
340
50
340
51
340
52
  0
GROUP
  5
54
102
{ACAD_REACTORS
330
D
102
}
100
AcDbGroup
300
Group created by Visio.
 70
     0
 71
     1
340
55
340
56
340
57
340
58
  0
GROUP
  5
5A
102
{ACAD_REACTORS
330
D
102
}
100
AcDbGroup
300
Group created by Visio.
 70
     0
 71
     1
340
5B
340
5C
340
5D
340
5E
  0
GROUP
  5
60
102
{ACAD_REACTORS
330
D
102
}
100
AcDbGroup
300
Group created by Visio.
 70
     0
 71
     1
  0
GROUP
  5
63
102
{ACAD_REACTORS
330
D
102
}
100
AcDbGroup
300
Group created by Visio.
 70
     0
 71
     1
  0
GROUP
  5
66
102
{ACAD_REACTORS
330
D
102
}
100
AcDbGroup
300
Group created by Visio.
 70
     0
 71
     1
  0
GROUP
  5
69
102
{ACAD_REACTORS
330
D
102
}
100
AcDbGroup
300
Group created by Visio.
 70
     0
 71
     1
340
6A
340
6B
340
6C
340
6D
340
6E
  0
GROUP
  5
70
102
{ACAD_REACTORS
330
D
102
}
100
AcDbGroup
300
Group created by Visio.
 70
     0
 71
     1
340
71
340
72
340
73
340
74
340
75
  0
GROUP
  5
78
102
{ACAD_REACTORS
330
D
102
}
100
AcDbGroup
300
Group created by Visio.
 70
     0
 71
     1
  0
GROUP
  5
7B
102
{ACAD_REACTORS
330
D
102
}
100
AcDbGroup
300
Group created by Visio.
 70
     0
 71
     1
  0
GROUP
  5
7E
102
{ACAD_REACTORS
330
D
102
}
100
AcDbGroup
300
Group created by Visio.
 70
     0
 71
     1
  0
GROUP
  5
81
102
{ACAD_REACTORS
330
D
102
}
100
AcDbGroup
300
Group created by Visio.
 70
     0
 71
     1
340
82
340
83
340
84
340
85
  0
GROUP
  5
87
102
{ACAD_REACTORS
330
D
102
}
100
AcDbGroup
300
Group created by Visio.
 70
     0
 71
     1
340
88
340
89
340
8A
340
8B
340
8D
340
8E
340
8F
340
90
340
92
340
93
340
94
340
95
340
97
340
98
340
99
340
9A
  0
GROUP
  5
9C
102
{ACAD_REACTORS
330
D
102
}
100
AcDbGroup
300
Group created by Visio.
 70
     0
 71
     1
340
9D
340
9E
340
9F
340
A0
340
A2
340
A3
340
A4
340
A5
340
A7
340
A8
340
A9
340
AA
  0
GROUP
  5
AC
102
{ACAD_REACTORS
330
D
102
}
100
AcDbGroup
300
Group created by Visio.
 70
     0
 71
     1
340
AD
340
AE
340
AF
340
B0
340
B2
340
B3
340
B4
340
B5
340
B7
340
B8
340
B9
340
BA
340
BC
340
BD
340
BE
340
BF
  0
GROUP
  5
C1
102
{ACAD_REACTORS
330
D
102
}
100
AcDbGroup
300
Group created by Visio.
 70
     0
 71
     1
340
C2
340
C3
340
C4
340
C5
340
C7
340
C8
340
C9
340
CA
340
CC
340
CD
340
CE
340
CF
340
D1
340
D2
340
D3
340
D4
  0
GROUP
  5
D6
102
{ACAD_REACTORS
330
D
102
}
100
AcDbGroup
300
Group created by Visio.
 70
     0
 71
     1
340
D7
340
D8
340
D9
340
DA
340
DC
340
DD
340
DE
340
DF
340
E1
340
E2
340
E3
340
E4
340
E6
340
E7
340
E8
340
E9
  0
GROUP
  5
EB
102
{ACAD_REACTORS
330
D
102
}
100
AcDbGroup
300
Group created by Visio.
 70
     0
 71
     1
340
EC
340
ED
340
EE
340
EF
  0
GROUP
  5
F1
102
{ACAD_REACTORS
330
D
102
}
100
AcDbGroup
300
Group created by Visio.
 70
     0
 71
     1
340
F2
340
F3
340
F4
340
F5
340
F6
  0
ENDSEC
  0
EOF
